ISO-10303-21;
HEADER;
FILE_DESCRIPTION (( 'STEP AP203' ),
    '1' );
FILE_NAME ('End Cap SDR11_001 117 0140 0032.step',
    '2019-12-16T11:41:07',
    ( '' ),
    ( '' ),
    'SwSTEP 2.0',
    'SolidWorks 2019',
    '' );
FILE_SCHEMA (( 'CONFIG_CONTROL_DESIGN' ));
ENDSEC;

DATA;
#1 = DIRECTION ( 'NONE',  ( -0.0000000000000000000, -1.000000000000000000, -0.0000000000000000000 ) ) ;
#2 = APPROVAL ( #250, 'BELÝRTÝLMEMÝÞ' ) ;
#3 = CARTESIAN_POINT ( 'NONE',  ( 0.0000000000000000000, 0.0000000000000000000, 0.0000000000000000000 ) ) ;
#4 = TOROIDAL_SURFACE ( 'NONE', #104, -0.7177437794290493223, 47.99999999999999289 ) ;
#5 = CARTESIAN_POINT ( 'NONE',  ( 0.0000000000000000000, 0.0000000000000000000, 0.0000000000000000000 ) ) ;
#6 = CC_DESIGN_APPROVAL ( #2, ( #102 ) ) ;
#7 = LINE ( 'NONE', #103, #212 ) ;
#8 = DIRECTION ( 'NONE',  ( -0.0000000000000000000, -1.000000000000000000, -0.0000000000000000000 ) ) ;
#9 = DIRECTION ( 'NONE',  ( -0.0000000000000000000, -1.000000000000000000, -0.0000000000000000000 ) ) ;
#10 = AXIS2_PLACEMENT_3D ( 'NONE', #145, #236, #27 ) ;
#11 = CARTESIAN_POINT ( 'NONE',  ( 0.0000000000000000000, 1.141445373645574080, 0.0000000000000000000 ) ) ;
#12 = DIRECTION ( 'NONE',  ( 0.0000000000000000000, 0.0000000000000000000, 1.000000000000000000 ) ) ;
#13 = DATE_AND_TIME ( #224, #193 ) ;
#14 = DATE_AND_TIME ( #225, #140 ) ;
#15 = PERSON_AND_ORGANIZATION ( #18, #153 ) ;
#16 = EDGE_CURVE ( 'NONE', #256, #161, #122, .T. ) ;
#17 = ORIENTED_EDGE ( 'NONE', *, *, #71, .T. ) ;
#18 = PERSON ( 'BELÝRTÝLMEMÝÞ', 'BELÝRTÝLMEMÝÞ', 'BELÝRTÝLMEMÝÞ', ('BELÝRTÝLMEMÝÞ'), ('BELÝRTÝLMEMÝÞ'), ('BELÝRTÝLMEMÝÞ') ) ;
#19 = EDGE_LOOP ( 'NONE', ( #283, #304, #138, #159 ) ) ;
#20 = APPROVAL_PERSON_ORGANIZATION ( #152, #163, #36 ) ;
#21 = ORIENTED_EDGE ( 'NONE', *, *, #244, .F. ) ;
#22 = ORIENTED_EDGE ( 'NONE', *, *, #137, .T. ) ;
#23 = AXIS2_PLACEMENT_3D ( 'NONE', #238, #28, #126 ) ;
#24 = CIRCLE ( 'NONE', #10, 12.99999999999999645 ) ;
#25 = AXIS2_PLACEMENT_3D ( 'NONE', #217, #8, #105 ) ;
#26 = EDGE_CURVE ( 'NONE', #186, #209, #100, .T. ) ;
#27 = DIRECTION ( 'NONE',  ( 0.0000000000000000000, 0.0000000000000000000, -1.000000000000000000 ) ) ;
#28 = DIRECTION ( 'NONE',  ( -0.0000000000000000000, -1.000000000000000000, -0.0000000000000000000 ) ) ;
#29 = AXIS2_PLACEMENT_3D ( 'NONE', #164, #261, #49 ) ;
#30 = DIRECTION ( 'NONE',  ( -0.0000000000000000000, -1.000000000000000000, -0.0000000000000000000 ) ) ;
#31 = DIRECTION ( 'NONE',  ( 1.000000000000000000, 0.0000000000000000000, -1.224646799147353207E-16 ) ) ;
#32 = DIRECTION ( 'NONE',  ( 1.000000000000000000, 0.0000000000000000000, -1.224646799147353207E-16 ) ) ;
#33 = FACE_OUTER_BOUND ( 'NONE', #258, .T. ) ;
#34 = CIRCLE ( 'NONE', #29, 15.99999999999998934 ) ;
#35 = APPROVAL ( #114, 'BELÝRTÝLMEMÝÞ' ) ;
#36 = APPROVAL_ROLE ( '' ) ;
#37 = APPROVAL_ROLE ( '' ) ;
#38 = CALENDAR_DATE ( 2019, 16, 12 ) ;
#39 = VERTEX_POINT ( 'NONE', #72 ) ;
#40 = APPLICATION_CONTEXT ( 'configuration controlled 3d designs of mechanical parts and assemblies' ) ;
#41 = ORIENTED_EDGE ( 'NONE', *, *, #106, .T. ) ;
#42 = EDGE_CURVE ( 'NONE', #139, #303, #79, .T. ) ;
#43 = VECTOR ( 'NONE', #73, 1000.000000000000000 ) ;
#44 = LOCAL_TIME ( 14, 41, 7.000000000000000000, #251 ) ;
#45 = VERTEX_POINT ( 'NONE', #143 ) ;
#46 = ORIENTED_EDGE ( 'NONE', *, *, #265, .F. ) ;
#47 = ADVANCED_FACE ( 'NONE', ( #234 ), #65, .F. ) ;
#48 = DIRECTION ( 'NONE',  ( 0.0000000000000000000, 0.0000000000000000000, 1.000000000000000000 ) ) ;
#49 = DIRECTION ( 'NONE',  ( 0.0000000000000000000, 0.0000000000000000000, -1.000000000000000000 ) ) ;
#50 = AXIS2_PLACEMENT_3D ( 'NONE', #83, #174, #268 ) ;
#51 = FACE_OUTER_BOUND ( 'NONE', #229, .T. ) ;
#52 = FACE_OUTER_BOUND ( 'NONE', #95, .T. ) ;
#53 = DIRECTION ( 'NONE',  ( 0.0000000000000000000, -1.000000000000000000, -0.0000000000000000000 ) ) ;
#54 = DIRECTION ( 'NONE',  ( 0.0000000000000000000, 0.0000000000000000000, -1.000000000000000000 ) ) ;
#55 = LINE ( 'NONE', #151, #183 ) ;
#56 = CC_DESIGN_DATE_AND_TIME_ASSIGNMENT ( #275, #62, ( #220 ) ) ;
#57 = APPLICATION_CONTEXT ( 'configuration controlled 3d designs of mechanical parts and assemblies' ) ;
#58 = CARTESIAN_POINT ( 'NONE',  ( 0.0000000000000000000, 46.13607886393374002, 0.0000000000000000000 ) ) ;
#59 = AXIS2_PLACEMENT_3D ( 'NONE', #213, #1, #97 ) ;
#60 = APPLICATION_PROTOCOL_DEFINITION ( 'international standard', 'config_control_design', 1994, #57 ) ;
#61 = CC_DESIGN_APPROVAL ( #163, ( #220 ) ) ;
#62 = DATE_TIME_ROLE ( 'creation_date' ) ;
#63 = PERSON_AND_ORGANIZATION ( #18, #153 ) ;
#64 = SHAPE_DEFINITION_REPRESENTATION ( #169, #270 ) ;
#65 = TOROIDAL_SURFACE ( 'NONE', #59, -0.7177437794290493223, 45.00035776589193404 ) ;
#66 = AXIS2_PLACEMENT_3D ( 'NONE', #172, #266, #54 ) ;
#67 = ORIENTED_EDGE ( 'NONE', *, *, #211, .F. ) ;
#68 = VERTEX_POINT ( 'NONE', #124 ) ;
#69 = ORIENTED_EDGE ( 'NONE', *, *, #291, .F. ) ;
#70 = ORIENTED_EDGE ( 'NONE', *, *, #260, .T. ) ;
#71 = EDGE_CURVE ( 'NONE', #303, #68, #190, .T. ) ;
#72 = CARTESIAN_POINT ( 'NONE',  ( 0.0000000000000000000, 0.0000000000000000000, -13.00000000000000533 ) ) ;
#73 = DIRECTION ( 'NONE',  ( -0.0000000000000000000, -1.000000000000000000, -0.0000000000000000000 ) ) ;
#74 = AXIS2_PLACEMENT_3D ( 'NONE', #162, #259, #48 ) ;
#75 = DIRECTION ( 'NONE',  ( -0.0000000000000000000, -1.000000000000000000, -0.0000000000000000000 ) ) ;
#76 = UNCERTAINTY_MEASURE_WITH_UNIT (LENGTH_MEASURE( 1.000000000000000082E-05 ), #245, 'distance_accuracy_value', 'NONE');
#77 = DIRECTION ( 'NONE',  ( -0.0000000000000000000, -1.000000000000000000, -0.0000000000000000000 ) ) ;
#78 = FACE_BOUND ( 'NONE', #184, .T. ) ;
#79 = CIRCLE ( 'NONE', #74, 47.99999999999999289 ) ;
#80 = CARTESIAN_POINT ( 'NONE',  ( 1.959434878635764343E-15, 46.13607886393374002, 15.99999999999998934 ) ) ;
#81 = AXIS2_PLACEMENT_3D ( 'NONE', #239, #30, #127 ) ;
#82 = EDGE_CURVE ( 'NONE', #254, #303, #34, .T. ) ;
#83 = CARTESIAN_POINT ( 'NONE',  ( 0.0000000000000000000, 0.0000000000000000000, 0.0000000000000000000 ) ) ;
#84 = CARTESIAN_POINT ( 'NONE',  ( 0.0000000000000000000, 0.0000000000000000000, 0.0000000000000000000 ) ) ;
#85 = AXIS2_PLACEMENT_3D ( 'NONE', #96, #188, #284 ) ;
#86 = COORDINATED_UNIVERSAL_TIME_OFFSET ( 3, 0, .AHEAD. ) ;
#87 = LOCAL_TIME ( 14, 41, 7.000000000000000000, #299 ) ;
#88 = PERSON_AND_ORGANIZATION ( #18, #153 ) ;
#89 = CALENDAR_DATE ( 2019, 16, 12 ) ;
#90 = ORIENTED_EDGE ( 'NONE', *, *, #26, .T. ) ;
#91 = AXIS2_PLACEMENT_3D ( 'NONE', #11, #110, #201 ) ;
#92 = CC_DESIGN_DATE_AND_TIME_ASSIGNMENT ( #135, #226, ( #178 ) ) ;
#93 = EDGE_LOOP ( 'NONE', ( #206, #22 ) ) ;
#94 = ORIENTED_EDGE ( 'NONE', *, *, #26, .F. ) ;
#95 = EDGE_LOOP ( 'NONE', ( #207, #116, #231, #255 ) ) ;
#96 = CARTESIAN_POINT ( 'NONE',  ( 0.0000000000000000000, 1.141445373645574080, 0.7177437794290493223 ) ) ;
#97 = DIRECTION ( 'NONE',  ( 0.0000000000000000000, 0.0000000000000000000, -1.000000000000000000 ) ) ;
#98 = CIRCLE ( 'NONE', #136, 16.00000000000000355 ) ;
#99 = CARTESIAN_POINT ( 'NONE',  ( 0.0000000000000000000, 1.141445373645574080, 0.0000000000000000000 ) ) ;
#100 = CIRCLE ( 'NONE', #85, 45.00035776589193404 ) ;
#101 = DIRECTION ( 'NONE',  ( -0.0000000000000000000, -1.000000000000000000, -0.0000000000000000000 ) ) ;
#102 = PRODUCT_DEFINITION_FORMATION_WITH_SPECIFIED_SOURCE ( 'HERHANGÝ', '', #192, .NOT_KNOWN. ) ;
#103 = CARTESIAN_POINT ( 'NONE',  ( 0.0000000000000000000, 0.0000000000000000000, -13.00000000000000178 ) ) ;
#104 = AXIS2_PLACEMENT_3D ( 'NONE', #99, #191, #287 ) ;
#105 = DIRECTION ( 'NONE',  ( 0.0000000000000000000, 0.0000000000000000000, -1.000000000000000000 ) ) ;
#106 = EDGE_CURVE ( 'NONE', #209, #256, #24, .T. ) ;
#107 = VECTOR ( 'NONE', #306, 1000.000000000000000 ) ;
#108 = DIRECTION ( 'NONE',  ( 0.0000000000000000000, 0.0000000000000000000, -1.000000000000000000 ) ) ;
#109 = AXIS2_PLACEMENT_3D ( 'NONE', #243, #32, #131 ) ;
#110 = DIRECTION ( 'NONE',  ( -0.0000000000000000000, -1.000000000000000000, -0.0000000000000000000 ) ) ;
#111 = DIRECTION ( 'NONE',  ( 1.000000000000000000, 0.0000000000000000000, 0.0000000000000000000 ) ) ;
#112 = APPROVAL_DATE_TIME ( #13, #163 ) ;
#113 = APPROVAL_DATE_TIME ( #14, #2 ) ;
#114 = APPROVAL_STATUS ( 'not_yet_approved' ) ;
#115 = DIRECTION ( 'NONE',  ( -0.0000000000000000000, -1.000000000000000000, -0.0000000000000000000 ) ) ;
#116 = ORIENTED_EDGE ( 'NONE', *, *, #291, .T. ) ;
#117 = CC_DESIGN_PERSON_AND_ORGANIZATION_ASSIGNMENT ( #203, #296, ( #220 ) ) ;
#118 = CLOSED_SHELL ( 'NONE', ( #249, #130, #189, #297, #274, #232, #156, #292, #47 ) ) ;
#119 = ORIENTED_EDGE ( 'NONE', *, *, #82, .T. ) ;
#120 = ORIENTED_EDGE ( 'NONE', *, *, #265, .T. ) ;
#121 = ORIENTED_EDGE ( 'NONE', *, *, #16, .T. ) ;
#122 = LINE ( 'NONE', #210, #107 ) ;
#123 = CIRCLE ( 'NONE', #293, 47.99999999999999289 ) ;
#124 = CARTESIAN_POINT ( 'NONE',  ( 0.0000000000000000000, 0.0000000000000000000, -16.00000000000000355 ) ) ;
#125 = FACE_OUTER_BOUND ( 'NONE', #281, .T. ) ;
#126 = DIRECTION ( 'NONE',  ( 0.0000000000000000000, 0.0000000000000000000, -1.000000000000000000 ) ) ;
#127 = DIRECTION ( 'NONE',  ( 0.0000000000000000000, 0.0000000000000000000, -1.000000000000000000 ) ) ;
#128 = CC_DESIGN_SECURITY_CLASSIFICATION ( #178, ( #102 ) ) ;
#129 = DIRECTION ( 'NONE',  ( -1.224646799147353207E-16, 0.0000000000000000000, -1.000000000000000000 ) ) ;
#130 = ADVANCED_FACE ( 'NONE', ( #125 ), #4, .T. ) ;
#131 = DIRECTION ( 'NONE',  ( -1.224646799147353207E-16, 0.0000000000000000000, -1.000000000000000000 ) ) ;
#132 = CIRCLE ( 'NONE', #165, 15.99999999999998934 ) ;
#133 = COORDINATED_UNIVERSAL_TIME_OFFSET ( 3, 0, .AHEAD. ) ;
#134 = COORDINATED_UNIVERSAL_TIME_OFFSET ( 3, 0, .AHEAD. ) ;
#135 = DATE_AND_TIME ( #38, #44 ) ;
#136 = AXIS2_PLACEMENT_3D ( 'NONE', #5, #101, #194 ) ;
#137 = EDGE_CURVE ( 'NONE', #45, #68, #237, .T. ) ;
#138 = ORIENTED_EDGE ( 'NONE', *, *, #211, .T. ) ;
#139 = VERTEX_POINT ( 'NONE', #262 ) ;
#140 = LOCAL_TIME ( 14, 41, 7.000000000000000000, #134 ) ;
#141 = ORIENTED_EDGE ( 'NONE', *, *, #137, .F. ) ;
#142 = ORIENTED_EDGE ( 'NONE', *, *, #240, .T. ) ;
#143 = CARTESIAN_POINT ( 'NONE',  ( 1.959434878635765526E-15, 0.0000000000000000000, 16.00000000000000355 ) ) ;
#144 = AXIS2_PLACEMENT_3D ( 'NONE', #218, #9, #108 ) ;
#145 = CARTESIAN_POINT ( 'NONE',  ( 0.0000000000000000000, 44.00000000000000000, 0.0000000000000000000 ) ) ;
#146 = CC_DESIGN_PERSON_AND_ORGANIZATION_ASSIGNMENT ( #63, #155, ( #178 ) ) ;
#147 = CYLINDRICAL_SURFACE ( 'NONE', #23, 15.99999999999999645 ) ;
#148 = CYLINDRICAL_SURFACE ( 'NONE', #81, 15.99999999999999645 ) ;
#149 = DIRECTION ( 'NONE',  ( 0.0000000000000000000, 0.0000000000000000000, -1.000000000000000000 ) ) ;
#150 = CARTESIAN_POINT ( 'NONE',  ( 1.592040838891559095E-15, 44.00000000000000000, 12.99999999999999645 ) ) ;
#151 = CARTESIAN_POINT ( 'NONE',  ( 1.959434878635764737E-15, 0.0000000000000000000, 15.99999999999999645 ) ) ;
#152 = PERSON_AND_ORGANIZATION ( #18, #153 ) ;
#153 = ORGANIZATION ( 'BELÝRTÝLMEMÝÞ', 'BELÝRTÝLMEMÝÞ', '' ) ;
#154 = PERSON_AND_ORGANIZATION ( #18, #153 ) ;
#155 = PERSON_AND_ORGANIZATION_ROLE ( 'classification_officer' ) ;
#156 = ADVANCED_FACE ( 'NONE', ( #51 ), #147, .T. ) ;
#157 = CIRCLE ( 'NONE', #25, 13.00000000000000533 ) ;
#158 = ORIENTED_EDGE ( 'NONE', *, *, #185, .T. ) ;
#159 = ORIENTED_EDGE ( 'NONE', *, *, #244, .T. ) ;
#160 = ORIENTED_EDGE ( 'NONE', *, *, #300, .F. ) ;
#161 = VERTEX_POINT ( 'NONE', #214 ) ;
#162 = CARTESIAN_POINT ( 'NONE',  ( 0.0000000000000000000, 1.141445373645574080, 0.7177437794290493223 ) ) ;
#163 = APPROVAL ( #248, 'BELÝRTÝLMEMÝÞ' ) ;
#164 = CARTESIAN_POINT ( 'NONE',  ( 0.0000000000000000000, 46.13607886393374002, 0.0000000000000000000 ) ) ;
#165 = AXIS2_PLACEMENT_3D ( 'NONE', #58, #115, #173 ) ;
#166 = DIRECTION ( 'NONE',  ( 0.0000000000000000000, 0.0000000000000000000, -1.000000000000000000 ) ) ;
#167 = DIRECTION ( 'NONE',  ( 0.0000000000000000000, 0.0000000000000000000, -1.000000000000000000 ) ) ;
#168 = DESIGN_CONTEXT ( 'detailed design', #57, 'design' ) ;
#169 = PRODUCT_DEFINITION_SHAPE ( 'NONE', 'NONE',  #220 ) ;
#170 = PLANE ( 'NONE',  #252 ) ;
#171 = AXIS2_PLACEMENT_3D ( 'NONE', #289, #77, #167 ) ;
#172 = CARTESIAN_POINT ( 'NONE',  ( 0.0000000000000000000, 1.141445373645574080, 0.0000000000000000000 ) ) ;
#173 = DIRECTION ( 'NONE',  ( 0.0000000000000000000, 0.0000000000000000000, -1.000000000000000000 ) ) ;
#174 = DIRECTION ( 'NONE',  ( -0.0000000000000000000, -1.000000000000000000, -0.0000000000000000000 ) ) ;
#175 = DIRECTION ( 'NONE',  ( -0.0000000000000000000, -1.000000000000000000, -0.0000000000000000000 ) ) ;
#176 = PERSON_AND_ORGANIZATION ( #18, #153 ) ;
#177 = CALENDAR_DATE ( 2019, 16, 12 ) ;
#178 = SECURITY_CLASSIFICATION ( '', '', #276 ) ;
#179 = PERSON_AND_ORGANIZATION_ROLE ( 'design_supplier' ) ;
#180 = EDGE_CURVE ( 'NONE', #68, #45, #98, .T. ) ;
#181 = DATE_AND_TIME ( #89, #87 ) ;
#182 = EDGE_LOOP ( 'NONE', ( #301, #121, #120, #67 ) ) ;
#183 = VECTOR ( 'NONE', #246, 1000.000000000000000 ) ;
#184 = EDGE_LOOP ( 'NONE', ( #21, #46 ) ) ;
#185 = EDGE_CURVE ( 'NONE', #256, #209, #307, .T. ) ;
#186 = VERTEX_POINT ( 'NONE', #263 ) ;
#187 = ORIENTED_EDGE ( 'NONE', *, *, #42, .T. ) ;
#188 = DIRECTION ( 'NONE',  ( -1.000000000000000000, 0.0000000000000000000, 0.0000000000000000000 ) ) ;
#189 = ADVANCED_FACE ( 'NONE', ( #52 ), #148, .T. ) ;
#190 = LINE ( 'NONE', #285, #43 ) ;
#191 = DIRECTION ( 'NONE',  ( -0.0000000000000000000, -1.000000000000000000, -0.0000000000000000000 ) ) ;
#192 = PRODUCT ( 'End Cap SDR11_001 117 0140 0032', 'End Cap SDR11_001 117 0140 0032', '', ( #202 ) ) ;
#193 = LOCAL_TIME ( 14, 41, 7.000000000000000000, #133 ) ;
#194 = DIRECTION ( 'NONE',  ( 0.0000000000000000000, 0.0000000000000000000, -1.000000000000000000 ) ) ;
#195 = DIRECTION ( 'NONE',  ( -0.0000000000000000000, -1.000000000000000000, -0.0000000000000000000 ) ) ;
#196 = FACE_OUTER_BOUND ( 'NONE', #233, .T. ) ;
#197 = TOROIDAL_SURFACE ( 'NONE', #66, -0.7177437794290493223, 45.00035776589193404 ) ;
#198 = FACE_OUTER_BOUND ( 'NONE', #19, .T. ) ;
#199 =( NAMED_UNIT ( * ) SI_UNIT ( $, .STERADIAN. ) SOLID_ANGLE_UNIT ( ) );
#200 = CC_DESIGN_PERSON_AND_ORGANIZATION_ASSIGNMENT ( #88, #179, ( #102 ) ) ;
#201 = DIRECTION ( 'NONE',  ( 0.0000000000000000000, 0.0000000000000000000, -1.000000000000000000 ) ) ;
#202 = MECHANICAL_CONTEXT ( 'NONE', #40, 'mechanical' ) ;
#203 = PERSON_AND_ORGANIZATION ( #18, #153 ) ;
#204 = PERSON_AND_ORGANIZATION ( #18, #153 ) ;
#205 = APPROVAL_ROLE ( '' ) ;
#206 = ORIENTED_EDGE ( 'NONE', *, *, #180, .T. ) ;
#207 = ORIENTED_EDGE ( 'NONE', *, *, #300, .T. ) ;
#208 = ORIENTED_EDGE ( 'NONE', *, *, #82, .F. ) ;
#209 = VERTEX_POINT ( 'NONE', #216 ) ;
#210 = CARTESIAN_POINT ( 'NONE',  ( 1.592040838891559293E-15, 0.0000000000000000000, 13.00000000000000178 ) ) ;
#211 = EDGE_CURVE ( 'NONE', #209, #39, #7, .T. ) ;
#212 = VECTOR ( 'NONE', #195, 1000.000000000000000 ) ;
#213 = CARTESIAN_POINT ( 'NONE',  ( 0.0000000000000000000, 1.141445373645574080, 0.0000000000000000000 ) ) ;
#214 = CARTESIAN_POINT ( 'NONE',  ( 1.592040838891559687E-15, 0.0000000000000000000, 13.00000000000000533 ) ) ;
#215 = APPROVAL_PERSON_ORGANIZATION ( #15, #35, #205 ) ;
#216 = CARTESIAN_POINT ( 'NONE',  ( 0.0000000000000000000, 44.00000000000000000, -12.99999999999999645 ) ) ;
#217 = CARTESIAN_POINT ( 'NONE',  ( 0.0000000000000000000, 0.0000000000000000000, 0.0000000000000000000 ) ) ;
#218 = CARTESIAN_POINT ( 'NONE',  ( 0.0000000000000000000, 0.0000000000000000000, 0.0000000000000000000 ) ) ;
#219 =( NAMED_UNIT ( * ) PLANE_ANGLE_UNIT ( ) SI_UNIT ( $, .RADIAN. ) );
#220 = PRODUCT_DEFINITION ( 'BÝLÝNMEYEN', '', #102, #168 ) ;
#221 = TOROIDAL_SURFACE ( 'NONE', #91, -0.7177437794290493223, 47.99999999999999289 ) ;
#222 = FACE_OUTER_BOUND ( 'NONE', #182, .T. ) ;
#223 = CARTESIAN_POINT ( 'NONE',  ( 0.0000000000000000000, 0.0000000000000000000, 0.0000000000000000000 ) ) ;
#224 = CALENDAR_DATE ( 2019, 16, 12 ) ;
#225 = CALENDAR_DATE ( 2019, 16, 12 ) ;
#226 = DATE_TIME_ROLE ( 'classification_date' ) ;
#227 = AXIS2_PLACEMENT_3D ( 'NONE', #3, #75, #166 ) ;
#228 = ORIENTED_EDGE ( 'NONE', *, *, #42, .F. ) ;
#229 = EDGE_LOOP ( 'NONE', ( #69, #119, #17, #141 ) ) ;
#230 = LOCAL_TIME ( 14, 41, 7.000000000000000000, #86 ) ;
#231 = ORIENTED_EDGE ( 'NONE', *, *, #180, .F. ) ;
#232 = ADVANCED_FACE ( 'NONE', ( #290, #78 ), #170, .T. ) ;
#233 = EDGE_LOOP ( 'NONE', ( #94, #70, #158 ) ) ;
#234 = FACE_OUTER_BOUND ( 'NONE', #282, .T. ) ;
#235 = CIRCLE ( 'NONE', #109, 45.00035776589193404 ) ;
#236 = DIRECTION ( 'NONE',  ( -0.0000000000000000000, -1.000000000000000000, -0.0000000000000000000 ) ) ;
#237 = CIRCLE ( 'NONE', #227, 16.00000000000000355 ) ;
#238 = CARTESIAN_POINT ( 'NONE',  ( 0.0000000000000000000, 0.0000000000000000000, 0.0000000000000000000 ) ) ;
#239 = CARTESIAN_POINT ( 'NONE',  ( 0.0000000000000000000, 0.0000000000000000000, 0.0000000000000000000 ) ) ;
#240 = EDGE_CURVE ( 'NONE', #139, #254, #123, .T. ) ;
#241 = MANIFOLD_SOLID_BREP ( 'Döndür1', #118 ) ;
#242 = CARTESIAN_POINT ( 'NONE',  ( -8.789826220857091928E-17, 1.141445373645574080, -0.7177437794290493223 ) ) ;
#243 = CARTESIAN_POINT ( 'NONE',  ( -8.789826220857091928E-17, 1.141445373645574080, -0.7177437794290493223 ) ) ;
#244 = EDGE_CURVE ( 'NONE', #39, #161, #157, .T. ) ;
#245 =( LENGTH_UNIT ( ) NAMED_UNIT ( * ) SI_UNIT ( .MILLI., .METRE. ) );
#246 = DIRECTION ( 'NONE',  ( -0.0000000000000000000, -1.000000000000000000, -0.0000000000000000000 ) ) ;
#247 =( GEOMETRIC_REPRESENTATION_CONTEXT ( 3 ) GLOBAL_UNCERTAINTY_ASSIGNED_CONTEXT ( ( #76 ) ) GLOBAL_UNIT_ASSIGNED_CONTEXT ( ( #245, #219, #199 ) ) REPRESENTATION_CONTEXT ( 'NONE', 'WORKASPACE' ) );
#248 = APPROVAL_STATUS ( 'not_yet_approved' ) ;
#249 = ADVANCED_FACE ( 'NONE', ( #196 ), #197, .F. ) ;
#250 = APPROVAL_STATUS ( 'not_yet_approved' ) ;
#251 = COORDINATED_UNIVERSAL_TIME_OFFSET ( 3, 0, .AHEAD. ) ;
#252 = AXIS2_PLACEMENT_3D ( 'NONE', #264, #53, #149 ) ;
#253 = CC_DESIGN_PERSON_AND_ORGANIZATION_ASSIGNMENT ( #204, #298, ( #102 ) ) ;
#254 = VERTEX_POINT ( 'NONE', #80 ) ;
#255 = ORIENTED_EDGE ( 'NONE', *, *, #71, .F. ) ;
#256 = VERTEX_POINT ( 'NONE', #150 ) ;
#257 = CC_DESIGN_APPROVAL ( #35, ( #178 ) ) ;
#258 = EDGE_LOOP ( 'NONE', ( #280, #187, #208 ) ) ;
#259 = DIRECTION ( 'NONE',  ( -1.000000000000000000, 0.0000000000000000000, 0.0000000000000000000 ) ) ;
#260 = EDGE_CURVE ( 'NONE', #186, #256, #235, .T. ) ;
#261 = DIRECTION ( 'NONE',  ( -0.0000000000000000000, -1.000000000000000000, -0.0000000000000000000 ) ) ;
#262 = CARTESIAN_POINT ( 'NONE',  ( -1.301042606982605321E-14, 49.13607886393374713, 0.0000000000000000000 ) ) ;
#263 = CARTESIAN_POINT ( 'NONE',  ( -1.032956225739768055E-14, 46.13607886393374002, 0.0000000000000000000 ) ) ;
#264 = CARTESIAN_POINT ( 'NONE',  ( 13.00000000000000533, 0.0000000000000000000, 0.0000000000000000000 ) ) ;
#265 = EDGE_CURVE ( 'NONE', #161, #39, #279, .T. ) ;
#266 = DIRECTION ( 'NONE',  ( -0.0000000000000000000, -1.000000000000000000, -0.0000000000000000000 ) ) ;
#267 = CARTESIAN_POINT ( 'NONE',  ( 0.0000000000000000000, 46.13607886393374002, -15.99999999999998934 ) ) ;
#268 = DIRECTION ( 'NONE',  ( 0.0000000000000000000, 0.0000000000000000000, -1.000000000000000000 ) ) ;
#269 = APPLICATION_PROTOCOL_DEFINITION ( 'international standard', 'config_control_design', 1994, #40 ) ;
#270 = ADVANCED_BREP_SHAPE_REPRESENTATION ( 'End Cap SDR11_001 117 0140 0032', ( #241, #288 ), #247 ) ;
#271 = DIRECTION ( 'NONE',  ( 0.0000000000000000000, 0.0000000000000000000, -1.000000000000000000 ) ) ;
#272 = PERSON_AND_ORGANIZATION_ROLE ( 'design_owner' ) ;
#273 = APPROVAL_PERSON_ORGANIZATION ( #154, #2, #37 ) ;
#274 = ADVANCED_FACE ( 'NONE', ( #198 ), #294, .F. ) ;
#275 = DATE_AND_TIME ( #177, #230 ) ;
#276 = SECURITY_CLASSIFICATION_LEVEL ( 'unclassified' ) ;
#277 = APPROVAL_DATE_TIME ( #181, #35 ) ;
#278 = CC_DESIGN_PERSON_AND_ORGANIZATION_ASSIGNMENT ( #176, #272, ( #192 ) ) ;
#279 = CIRCLE ( 'NONE', #144, 13.00000000000000533 ) ;
#280 = ORIENTED_EDGE ( 'NONE', *, *, #240, .F. ) ;
#281 = EDGE_LOOP ( 'NONE', ( #228, #142, #160 ) ) ;
#282 = EDGE_LOOP ( 'NONE', ( #305, #90, #41 ) ) ;
#283 = ORIENTED_EDGE ( 'NONE', *, *, #16, .F. ) ;
#284 = DIRECTION ( 'NONE',  ( 0.0000000000000000000, 0.0000000000000000000, 1.000000000000000000 ) ) ;
#285 = CARTESIAN_POINT ( 'NONE',  ( 0.0000000000000000000, 0.0000000000000000000, -15.99999999999999645 ) ) ;
#286 = PRODUCT_RELATED_PRODUCT_CATEGORY ( 'detail', '', ( #192 ) ) ;
#287 = DIRECTION ( 'NONE',  ( 0.0000000000000000000, 0.0000000000000000000, -1.000000000000000000 ) ) ;
#288 = AXIS2_PLACEMENT_3D ( 'NONE', #223, #12, #111 ) ;
#289 = CARTESIAN_POINT ( 'NONE',  ( 0.0000000000000000000, 44.00000000000000000, 0.0000000000000000000 ) ) ;
#290 = FACE_OUTER_BOUND ( 'NONE', #93, .T. ) ;
#291 = EDGE_CURVE ( 'NONE', #254, #45, #55, .T. ) ;
#292 = ADVANCED_FACE ( 'NONE', ( #33 ), #221, .T. ) ;
#293 = AXIS2_PLACEMENT_3D ( 'NONE', #242, #31, #129 ) ;
#294 = CYLINDRICAL_SURFACE ( 'NONE', #50, 13.00000000000000178 ) ;
#295 = CYLINDRICAL_SURFACE ( 'NONE', #302, 13.00000000000000178 ) ;
#296 = PERSON_AND_ORGANIZATION_ROLE ( 'creator' ) ;
#297 = ADVANCED_FACE ( 'NONE', ( #222 ), #295, .F. ) ;
#298 = PERSON_AND_ORGANIZATION_ROLE ( 'creator' ) ;
#299 = COORDINATED_UNIVERSAL_TIME_OFFSET ( 3, 0, .AHEAD. ) ;
#300 = EDGE_CURVE ( 'NONE', #303, #254, #132, .T. ) ;
#301 = ORIENTED_EDGE ( 'NONE', *, *, #185, .F. ) ;
#302 = AXIS2_PLACEMENT_3D ( 'NONE', #84, #175, #271 ) ;
#303 = VERTEX_POINT ( 'NONE', #267 ) ;
#304 = ORIENTED_EDGE ( 'NONE', *, *, #106, .F. ) ;
#305 = ORIENTED_EDGE ( 'NONE', *, *, #260, .F. ) ;
#306 = DIRECTION ( 'NONE',  ( -0.0000000000000000000, -1.000000000000000000, -0.0000000000000000000 ) ) ;
#307 = CIRCLE ( 'NONE', #171, 12.99999999999999645 ) ;
ENDSEC;
END-ISO-10303-21;
